"Cattle and Cane"

from the album "Before Hollywood"

-------------------------------------------------------------------------------
			     Cattle and Cane
-------------------------------------------------------------------------------
Tabbed by The Abominable Showmen


The chords are noted below by Roman Numerals: 

    I  II III or IV 
e|----------------3------| 
B|----------------3------| 
G|-----------------------| 
D|--4------3-------------| 
A|--5--5----------2------| 
E|--5--7---5------3------| 

It starts with this pattern 
Chord I 
Dó4--------- 
A------5---- 
E----5------

Then the riff goes II - I - II with strumming mainly on the E A D strings but let the others ring open. 

Then for the "From time to time waste..." 
They play the riff II - I - III. 

Robert plays chord IV instead of III to add emphasis.

I recall a schoolboy coming home
Through fields of cane
To a house of tin and timber
And in the sky a rain of falling cinders.
From time to time 
The waste memory-wastes
I recall a boy in bigger pants 
Like everyone
Just waiting for a chance
His father's watch
He left it in the showers
From time to time 
The waste memory-wastes
I recall a bigger brighter world
A world of books 
And silent times in thought
And then the railroad 
The railroad takes him home
Through fields of cattle 
Through fields of cane
From time to time 
The waste memory-wastes
The waste memory-wastes
Further, longer, higher, older.


===============================================================================		

Editor: Jonathan Turner jturner@dircon.co.uk | Design: Mike Plumbley larome@btinternet.com